ISO-10303-21;
HEADER;
FILE_DESCRIPTION (( 'STEP AP214' ),
    '1' );
FILE_NAME ('90000476 (180mm dia x 45 deg).STEP',
    '2025-03-06T13:25:43',
    ( '' ),
    ( '' ),
    'SwSTEP 2.0',
    'SolidWorks 2024',
    '' );
FILE_SCHEMA (( 'AUTOMOTIVE_DESIGN' ));
ENDSEC;

DATA;
#1 = CARTESIAN_POINT ( 'NONE',  ( 106.0000000000000426, 62.13203435596500412, 212.0000000000000000 ) ) ;
#2 =( LENGTH_UNIT ( ) NAMED_UNIT ( * ) SI_UNIT ( .MILLI., .METRE. ) );
#3 = CYLINDRICAL_SURFACE ( 'NONE', #255, 106.0000000000000142 ) ;
#4 = DIRECTION ( 'NONE',  ( -0.7071067811865415775, 0.7071067811865534569, 0.000000000000000000 ) ) ;
#5 = CARTESIAN_POINT ( 'NONE',  ( 0.000000000000000000, 0.000000000000000000, 0.000000000000000000 ) ) ;
#6 = CIRCLE ( 'NONE', #21, 90.00000000000001421 ) ;
#7 = CARTESIAN_POINT ( 'NONE',  ( 90.00000000000000000, 68.75945135393459395, 1.102182119232618069E-14 ) ) ;
#8 = VECTOR ( 'NONE', #166, 999.9999999999998863 ) ;
#9 = CYLINDRICAL_SURFACE ( 'NONE', #234, 106.0000000000000142 ) ;
#10 = APPLICATION_CONTEXT ( 'automotive_design' ) ;
#11 = ADVANCED_FACE ( 'NONE', ( #51, #277 ), #109, .T. ) ;
#12 = CIRCLE ( 'NONE', #175, 106.0000000000000142 ) ;
#13 = VERTEX_POINT ( 'NONE', #22 ) ;
#14 = ORIENTED_EDGE ( 'NONE', *, *, #55, .F. ) ;
#15 = ORIENTED_EDGE ( 'NONE', *, *, #188, .T. ) ;
#16 = CARTESIAN_POINT ( 'NONE',  ( -90.00000000000001421, 143.3178925810926216, 0.000000000000000000 ) ) ;
#17 = EDGE_LOOP ( 'NONE', ( #124, #225, #150, #120 ) ) ;
#18 = CARTESIAN_POINT ( 'NONE',  ( 6.579909500356265539, -37.28805614367705346, 1.298125607096194621E-14 ) ) ;
#19 = EDGE_LOOP ( 'NONE', ( #252, #68, #39, #289 ) ) ;
#20 = CARTESIAN_POINT ( 'NONE',  ( 90.00000000000005684, 68.75945135393459395, -180.0000000000000000 ) ) ;
#21 = AXIS2_PLACEMENT_3D ( 'NONE', #64, #295, #87 ) ;
#22 = CARTESIAN_POINT ( 'NONE',  ( -90.00000000000001421, 0.000000000000000000, 0.000000000000000000 ) ) ;
#23 = EDGE_CURVE ( 'NONE', #247, #104, #286, .T. ) ;
#24 = LINE ( 'NONE', #246, #212 ) ;
#25 = CARTESIAN_POINT ( 'NONE',  ( -106.0000000000000142, 1.971433025374109609E-28, 0.000000000000000000 ) ) ;
#26 = CARTESIAN_POINT ( 'NONE',  ( -106.0000000000000142, 0.000000000000000000, 0.000000000000000000 ) ) ;
#27 =( NAMED_UNIT ( * ) SI_UNIT ( $, .STERADIAN. ) SOLID_ANGLE_UNIT ( ) );
#28 = CYLINDRICAL_SURFACE ( 'NONE', #52, 106.0000000000000142 ) ;
#29 = DIRECTION ( 'NONE',  ( 0.000000000000000000, 0.000000000000000000, 1.000000000000000000 ) ) ;
#30 = DIRECTION ( 'NONE',  ( 1.859842476768027821E-30, 1.000000000000000000, 0.000000000000000000 ) ) ;
#31 = FACE_OUTER_BOUND ( 'NONE', #41, .T. ) ;
#32 = ADVANCED_FACE ( 'NONE', ( #202 ), #28, .T. ) ;
#33 = CARTESIAN_POINT ( 'NONE',  ( -90.00000000000002842, 143.3178925810926216, 180.0000000000000000 ) ) ;
#34 = DIRECTION ( 'NONE',  ( 0.7071067811865534569, 0.7071067811865415775, 0.000000000000000000 ) ) ;
#35 = AXIS2_PLACEMENT_3D ( 'NONE', #5, #110, #29 ) ;
#36 = EDGE_CURVE ( 'NONE', #122, #102, #6, .T. ) ;
#37 = PRODUCT_DEFINITION_CONTEXT ( 'detailed design', #45, 'design' ) ;
#38 = VECTOR ( 'NONE', #128, 999.9999999999998863 ) ;
#39 = ORIENTED_EDGE ( 'NONE', *, *, #238, .F. ) ;
#40 = ADVANCED_BREP_SHAPE_REPRESENTATION ( '90000476 (180mm dia x 45 deg)', ( #73, #213 ), #288 ) ;
#41 = EDGE_LOOP ( 'NONE', ( #82, #80, #174, #176 ) ) ;
#42 = EDGE_LOOP ( 'NONE', ( #56, #86, #231, #149 ) ) ;
#43 = LINE ( 'NONE', #195, #38 ) ;
#44 =( LENGTH_UNIT ( ) NAMED_UNIT ( * ) SI_UNIT ( .MILLI., .METRE. ) );
#45 = APPLICATION_CONTEXT ( 'automotive_design' ) ;
#46 = AXIS2_PLACEMENT_3D ( 'NONE', #101, #148, #81 ) ;
#47 = CARTESIAN_POINT ( 'NONE',  ( 0.000000000000000000, 0.000000000000000000, 0.000000000000000000 ) ) ;
#48 = EDGE_LOOP ( 'NONE', ( #222, #163, #144, #63 ) ) ;
#49 = ORIENTED_EDGE ( 'NONE', *, *, #125, .T. ) ;
#50 = CARTESIAN_POINT ( 'NONE',  ( 0.000000000000000000, 0.000000000000000000, 0.000000000000000000 ) ) ;
#51 = FACE_BOUND ( 'NONE', #57, .T. ) ;
#52 = AXIS2_PLACEMENT_3D ( 'NONE', #184, #30, #273 ) ;
#53 = DIRECTION ( 'NONE',  ( 1.859842476768027821E-30, 1.000000000000000000, 0.000000000000000000 ) ) ;
#54 =( BOUNDED_CURVE ( )  B_SPLINE_CURVE ( 3, ( #228, #20, #173, #16 ),
 .UNSPECIFIED., .F., .T. ) 
 B_SPLINE_CURVE_WITH_KNOTS ( ( 4, 4 ),
 ( 3.141592653589793116, 6.283185307179586232 ),
 .UNSPECIFIED. ) 
 CURVE ( )  GEOMETRIC_REPRESENTATION_ITEM ( )  RATIONAL_B_SPLINE_CURVE ( ( 1.000000000000000000, 0.3333333333333333703, 0.3333333333333333703, 1.000000000000000000 ) ) 
 REPRESENTATION_ITEM ( '' )  );
#55 = EDGE_CURVE ( 'NONE', #244, #104, #179, .T. ) ;
#56 = ORIENTED_EDGE ( 'NONE', *, *, #58, .F. ) ;
#57 = EDGE_LOOP ( 'NONE', ( #49, #292 ) ) ;
#58 = EDGE_CURVE ( 'NONE', #223, #265, #158, .T. ) ;
#59 = EDGE_LOOP ( 'NONE', ( #154, #98, #132, #79 ) ) ;
#60 = CARTESIAN_POINT ( 'NONE',  ( 0.000000000000000000, 0.000000000000000000, 0.000000000000000000 ) ) ;
#61 = AXIS2_PLACEMENT_3D ( 'NONE', #146, #99, #97 ) ;
#62 = EDGE_CURVE ( 'NONE', #244, #275, #258, .T. ) ;
#63 = ORIENTED_EDGE ( 'NONE', *, *, #239, .F. ) ;
#64 = CARTESIAN_POINT ( 'NONE',  ( 74.98066401624548405, 181.0193359837578271, 0.000000000000000000 ) ) ;
#65 = DIRECTION ( 'NONE',  ( 0.7071067811865534569, 0.7071067811865415775, 0.000000000000000000 ) ) ;
#66 = DIRECTION ( 'NONE',  ( 1.859842476768027821E-30, 1.000000000000000000, 0.000000000000000000 ) ) ;
#67 = CARTESIAN_POINT ( 'NONE',  ( -106.0000000000000142, 149.9453095790621830, -212.0000000000000000 ) ) ;
#68 = ORIENTED_EDGE ( 'NONE', *, *, #214, .T. ) ;
#69 = LINE ( 'NONE', #254, #294 ) ;
#70 = CARTESIAN_POINT ( 'NONE',  ( 74.98066401624548405, 181.0193359837578271, 0.000000000000000000 ) ) ;
#71 = SHAPE_DEFINITION_REPRESENTATION ( #76, #40 ) ;
#72 = EDGE_CURVE ( 'NONE', #104, #112, #24, .T. ) ;
#73 = MANIFOLD_SOLID_BREP ( 'Sweep1', #115 ) ;
#74 = EDGE_CURVE ( 'NONE', #275, #244, #285, .T. ) ;
#75 = ADVANCED_FACE ( 'NONE', ( #162 ), #232, .T. ) ;
#76 = PRODUCT_DEFINITION_SHAPE ( 'NONE', 'NONE',  #165 ) ;
#77 = ORIENTED_EDGE ( 'NONE', *, *, #216, .F. ) ;
#78 = FACE_OUTER_BOUND ( 'NONE', #19, .T. ) ;
#79 = ORIENTED_EDGE ( 'NONE', *, *, #36, .F. ) ;
#80 = ORIENTED_EDGE ( 'NONE', *, *, #188, .F. ) ;
#81 = DIRECTION ( 'NONE',  ( 0.000000000000000000, 0.000000000000000000, 1.000000000000000000 ) ) ;
#82 = ORIENTED_EDGE ( 'NONE', *, *, #214, .F. ) ;
#83 = DIRECTION ( 'NONE',  ( 1.859842476768027821E-30, 1.000000000000000000, 0.000000000000000000 ) ) ;
#84 = CIRCLE ( 'NONE', #118, 90.00000000000001421 ) ;
#85 = DIRECTION ( 'NONE',  ( 1.859842476768027821E-30, 1.000000000000000000, 0.000000000000000000 ) ) ;
#86 = ORIENTED_EDGE ( 'NONE', *, *, #216, .T. ) ;
#87 = DIRECTION ( 'NONE',  ( 0.000000000000000000, 0.000000000000000000, 1.000000000000000000 ) ) ;
#88 = DIRECTION ( 'NONE',  ( 0.000000000000000000, 0.000000000000000000, 1.000000000000000000 ) ) ;
#89 = EDGE_CURVE ( 'NONE', #290, #265, #139, .T. ) ;
#90 = DIRECTION ( 'NONE',  ( -1.000000000000000000, 1.859842476768027821E-30, 0.000000000000000000 ) ) ;
#91 = CARTESIAN_POINT ( 'NONE',  ( 0.02734521047206839306, 255.9726547895325268, 0.000000000000000000 ) ) ;
#92 = ADVANCED_FACE ( 'NONE', ( #31 ), #3, .T. ) ;
#93 = VECTOR ( 'NONE', #250, 1000.000000000000000 ) ;
#94 = CARTESIAN_POINT ( 'NONE',  ( -90.00000000000001421, 143.3178925810926216, 0.000000000000000000 ) ) ;
#95 = VECTOR ( 'NONE', #66, 1000.000000000000000 ) ;
#96 = EDGE_CURVE ( 'NONE', #121, #112, #12, .T. ) ;
#97 = DIRECTION ( 'NONE',  ( -0.7071067811865414665, 0.7071067811865535679, 0.000000000000000000 ) ) ;
#98 = ORIENTED_EDGE ( 'NONE', *, *, #89, .F. ) ;
#99 = DIRECTION ( 'NONE',  ( 0.7071067811865534569, 0.7071067811865415775, 0.000000000000000000 ) ) ;
#100 = ORIENTED_EDGE ( 'NONE', *, *, #267, .F. ) ;
#101 = CARTESIAN_POINT ( 'NONE',  ( 0.000000000000000000, 0.000000000000000000, 0.000000000000000000 ) ) ;
#102 = VERTEX_POINT ( 'NONE', #257 ) ;
#103 = CARTESIAN_POINT ( 'NONE',  ( 90.00000000000001421, 0.000000000000000000, 1.102182119232618069E-14 ) ) ;
#104 = VERTEX_POINT ( 'NONE', #185 ) ;
#105 = CARTESIAN_POINT ( 'NONE',  ( 106.0000000000000142, 62.13203435596501123, 1.298125607096194621E-14 ) ) ;
#106 =( NAMED_UNIT ( * ) PLANE_ANGLE_UNIT ( ) SI_UNIT ( $, .RADIAN. ) );
#107 = CARTESIAN_POINT ( 'NONE',  ( 0.000000000000000000, 0.000000000000000000, 0.000000000000000000 ) ) ;
#108 = FACE_BOUND ( 'NONE', #147, .T. ) ;
#109 = PLANE ( 'NONE',  #278 ) ;
#110 = DIRECTION ( 'NONE',  ( -0.000000000000000000, -1.000000000000000000, -0.000000000000000000 ) ) ;
#111 = DIRECTION ( 'NONE',  ( 0.000000000000000000, 0.000000000000000000, 1.000000000000000000 ) ) ;
#112 = VERTEX_POINT ( 'NONE', #91 ) ;
#113 = DIRECTION ( 'NONE',  ( -0.7071067811865534569, -0.7071067811865415775, -0.000000000000000000 ) ) ;
#114 = CARTESIAN_POINT ( 'NONE',  ( 5.576042303605296624, -15.66450634245867413, 1.102182119232618069E-14 ) ) ;
#115 = CLOSED_SHELL ( 'NONE', ( #219, #153, #32, #180, #259, #263, #256, #11, #75, #92 ) ) ;
#116 = AXIS2_PLACEMENT_3D ( 'NONE', #235, #164, #135 ) ;
#117 = UNCERTAINTY_MEASURE_WITH_UNIT (LENGTH_MEASURE( 1.000000000000000082E-05 ), #44, 'distance_accuracy_value', 'NONE');
#118 = AXIS2_PLACEMENT_3D ( 'NONE', #133, #113, #281 ) ;
#119 = CIRCLE ( 'NONE', #198, 106.0000000000000142 ) ;
#120 = ORIENTED_EDGE ( 'NONE', *, *, #145, .F. ) ;
#121 = VERTEX_POINT ( 'NONE', #191 ) ;
#122 = VERTEX_POINT ( 'NONE', #215 ) ;
#123 = CARTESIAN_POINT ( 'NONE',  ( 106.0000000000000142, -1.971433025374109609E-28, 1.298125607096194621E-14 ) ) ;
#124 = ORIENTED_EDGE ( 'NONE', *, *, #267, .T. ) ;
#125 = EDGE_CURVE ( 'NONE', #102, #122, #84, .T. ) ;
#126 = CYLINDRICAL_SURFACE ( 'NONE', #116, 90.00000000000001421 ) ;
#127 = ORIENTED_EDGE ( 'NONE', *, *, #200, .T. ) ;
#128 = DIRECTION ( 'NONE',  ( 0.7071067811865535679, 0.7071067811865415775, 0.000000000000000000 ) ) ;
#129 = DIRECTION ( 'NONE',  ( 0.7071067811865535679, 0.7071067811865415775, -0.000000000000000000 ) ) ;
#130 = PRESENTATION_STYLE_ASSIGNMENT (( #243 ) ) ;
#131 = CARTESIAN_POINT ( 'NONE',  ( 106.0000000000000000, 62.13203435596502544, -212.0000000000000000 ) ) ;
#132 = ORIENTED_EDGE ( 'NONE', *, *, #239, .T. ) ;
#133 = CARTESIAN_POINT ( 'NONE',  ( 74.98066401624548405, 181.0193359837578271, 0.000000000000000000 ) ) ;
#134 = CARTESIAN_POINT ( 'NONE',  ( -106.0000000000000142, 149.9453095790622115, 0.000000000000000000 ) ) ;
#135 = DIRECTION ( 'NONE',  ( -0.7071067811865414665, 0.7071067811865535679, 0.000000000000000000 ) ) ;
#136 = PRODUCT_DEFINITION_FORMATION_WITH_SPECIFIED_SOURCE ( 'ANY', '', #143, .NOT_KNOWN. ) ;
#137 = FACE_OUTER_BOUND ( 'NONE', #48, .T. ) ;
#138 = CARTESIAN_POINT ( 'NONE',  ( 0.000000000000000000, 0.000000000000000000, 0.000000000000000000 ) ) ;
#139 =( BOUNDED_CURVE ( )  B_SPLINE_CURVE ( 3, ( #282, #33, #208, #187 ),
 .UNSPECIFIED., .F., .F. ) 
 B_SPLINE_CURVE_WITH_KNOTS ( ( 4, 4 ),
 ( 0.000000000000000000, 3.141592653589793116 ),
 .UNSPECIFIED. ) 
 CURVE ( )  GEOMETRIC_REPRESENTATION_ITEM ( )  RATIONAL_B_SPLINE_CURVE ( ( 1.000000000000000000, 0.3333333333333333703, 0.3333333333333333703, 1.000000000000000000 ) ) 
 REPRESENTATION_ITEM ( '' )  );
#140 =( NAMED_UNIT ( * ) SI_UNIT ( $, .STERADIAN. ) SOLID_ANGLE_UNIT ( ) );
#141 = COLOUR_RGB ( '',0.7921568627450980005, 0.8196078431372548767, 0.9333333333333333481 ) ;
#142 = DIRECTION ( 'NONE',  ( 0.000000000000000000, 0.000000000000000000, 1.000000000000000000 ) ) ;
#143 = PRODUCT ( '90000476 (180mm dia x 45 deg)', '90000476 (180mm dia x 45 deg)', '', ( #186 ) ) ;
#144 = ORIENTED_EDGE ( 'NONE', *, *, #125, .F. ) ;
#145 = EDGE_CURVE ( 'NONE', #13, #290, #69, .T. ) ;
#146 = CARTESIAN_POINT ( 'NONE',  ( -58.06356800318344824, 47.97510396433114011, 0.000000000000000000 ) ) ;
#147 = EDGE_LOOP ( 'NONE', ( #100, #77 ) ) ;
#148 = DIRECTION ( 'NONE',  ( 0.000000000000000000, 1.000000000000000000, 0.000000000000000000 ) ) ;
#149 = ORIENTED_EDGE ( 'NONE', *, *, #89, .T. ) ;
#150 = ORIENTED_EDGE ( 'NONE', *, *, #196, .T. ) ;
#151 = AXIS2_PLACEMENT_3D ( 'NONE', #47, #280, #111 ) ;
#152 = DIRECTION ( 'NONE',  ( -1.000000000000000000, 1.859842476768027821E-30, 0.000000000000000000 ) ) ;
#153 = ADVANCED_FACE ( 'NONE', ( #137 ), #221, .F. ) ;
#154 = ORIENTED_EDGE ( 'NONE', *, *, #298, .F. ) ;
#155 = FACE_OUTER_BOUND ( 'NONE', #42, .T. ) ;
#156 = FILL_AREA_STYLE ('',( #201 ) ) ;
#157 = LINE ( 'NONE', #18, #227 ) ;
#158 = LINE ( 'NONE', #291, #170 ) ;
#159 = CYLINDRICAL_SURFACE ( 'NONE', #261, 90.00000000000001421 ) ;
#160 = AXIS2_PLACEMENT_3D ( 'NONE', #107, #181, #279 ) ;
#161 = PLANE ( 'NONE',  #269 ) ;
#162 = FACE_OUTER_BOUND ( 'NONE', #241, .T. ) ;
#163 = ORIENTED_EDGE ( 'NONE', *, *, #298, .T. ) ;
#164 = DIRECTION ( 'NONE',  ( 0.7071067811865534569, 0.7071067811865415775, 0.000000000000000000 ) ) ;
#165 = PRODUCT_DEFINITION ( 'UNKNOWN', '', #136, #37 ) ;
#166 = DIRECTION ( 'NONE',  ( 0.7071067811865535679, 0.7071067811865415775, 0.000000000000000000 ) ) ;
#167 =( BOUNDED_CURVE ( )  B_SPLINE_CURVE ( 3, ( #224, #67, #131, #204 ),
 .UNSPECIFIED., .F., .T. ) 
 B_SPLINE_CURVE_WITH_KNOTS ( ( 4, 4 ),
 ( 0.000000000000000000, 3.141592653589793116 ),
 .UNSPECIFIED. ) 
 CURVE ( )  GEOMETRIC_REPRESENTATION_ITEM ( )  RATIONAL_B_SPLINE_CURVE ( ( 1.000000000000000000, 0.3333333333333333703, 0.3333333333333333703, 1.000000000000000000 ) ) 
 REPRESENTATION_ITEM ( '' )  );
#168 = APPLICATION_PROTOCOL_DEFINITION ( 'draft international standard', 'automotive_design', 1998, #10 ) ;
#169 = PRODUCT_RELATED_PRODUCT_CATEGORY ( 'part', '', ( #143 ) ) ;
#170 = VECTOR ( 'NONE', #85, 1000.000000000000000 ) ;
#171 = EDGE_LOOP ( 'NONE', ( #220, #127, #197, #14 ) ) ;
#172 = ORIENTED_EDGE ( 'NONE', *, *, #200, .F. ) ;
#173 = CARTESIAN_POINT ( 'NONE',  ( -90.00000000000002842, 143.3178925810926216, -180.0000000000000000 ) ) ;
#174 = ORIENTED_EDGE ( 'NONE', *, *, #72, .T. ) ;
#175 = AXIS2_PLACEMENT_3D ( 'NONE', #70, #211, #190 ) ;
#176 = ORIENTED_EDGE ( 'NONE', *, *, #96, .F. ) ;
#177 = CARTESIAN_POINT ( 'NONE',  ( 74.98066401624548405, 181.0193359837578271, 0.000000000000000000 ) ) ;
#178 = SURFACE_STYLE_FILL_AREA ( #156 ) ;
#179 = LINE ( 'NONE', #25, #95 ) ;
#180 = ADVANCED_FACE ( 'NONE', ( #78 ), #9, .T. ) ;
#181 = DIRECTION ( 'NONE',  ( -0.000000000000000000, -1.000000000000000000, -0.000000000000000000 ) ) ;
#182 = DIRECTION ( 'NONE',  ( 0.7071067811865535679, 0.7071067811865415775, 0.000000000000000000 ) ) ;
#183 =( GEOMETRIC_REPRESENTATION_CONTEXT ( 3 ) GLOBAL_UNCERTAINTY_ASSIGNED_CONTEXT ( ( #117 ) ) GLOBAL_UNIT_ASSIGNED_CONTEXT ( ( #44, #106, #27 ) ) REPRESENTATION_CONTEXT ( 'NONE', 'WORKASPACE' ) );
#184 = CARTESIAN_POINT ( 'NONE',  ( 0.000000000000000000, 0.000000000000000000, 0.000000000000000000 ) ) ;
#185 = CARTESIAN_POINT ( 'NONE',  ( -106.0000000000000142, 149.9453095790622115, 0.000000000000000000 ) ) ;
#186 = PRODUCT_CONTEXT ( 'NONE', #10, 'mechanical' ) ;
#187 = CARTESIAN_POINT ( 'NONE',  ( 90.00000000000000000, 68.75945135393459395, 1.102182119232618069E-14 ) ) ;
#188 = EDGE_CURVE ( 'NONE', #104, #247, #167, .T. ) ;
#189 = LINE ( 'NONE', #114, #8 ) ;
#190 = DIRECTION ( 'NONE',  ( 0.000000000000000000, 0.000000000000000000, 1.000000000000000000 ) ) ;
#191 = CARTESIAN_POINT ( 'NONE',  ( 149.9339828220189190, 106.0660171779831700, 1.298125607096194621E-14 ) ) ;
#192 = CIRCLE ( 'NONE', #35, 90.00000000000001421 ) ;
#193 = ORIENTED_EDGE ( 'NONE', *, *, #74, .T. ) ;
#194 = ORIENTED_EDGE ( 'NONE', *, *, #74, .F. ) ;
#195 = CARTESIAN_POINT ( 'NONE',  ( -121.7031783099722020, 111.6147142711209597, 0.000000000000000000 ) ) ;
#196 = EDGE_CURVE ( 'NONE', #265, #290, #54, .T. ) ;
#197 = ORIENTED_EDGE ( 'NONE', *, *, #23, .T. ) ;
#198 = AXIS2_PLACEMENT_3D ( 'NONE', #177, #65, #88 ) ;
#199 = DIRECTION ( 'NONE',  ( -0.7071067811865415775, 0.7071067811865534569, 0.000000000000000000 ) ) ;
#200 = EDGE_CURVE ( 'NONE', #275, #247, #296, .T. ) ;
#201 = FILL_AREA_STYLE_COLOUR ( '', #141 ) ;
#202 = FACE_OUTER_BOUND ( 'NONE', #171, .T. ) ;
#203 = ORIENTED_EDGE ( 'NONE', *, *, #62, .F. ) ;
#204 = CARTESIAN_POINT ( 'NONE',  ( 106.0000000000000142, 62.13203435596501123, 1.298125607096194621E-14 ) ) ;
#205 = DIRECTION ( 'NONE',  ( 0.000000000000000000, 0.000000000000000000, 1.000000000000000000 ) ) ;
#206 = CARTESIAN_POINT ( 'NONE',  ( 106.0000000000000142, 0.000000000000000000, 1.298125607096194621E-14 ) ) ;
#207 = DIRECTION ( 'NONE',  ( 1.859842476768027821E-30, 1.000000000000000000, 0.000000000000000000 ) ) ;
#208 = CARTESIAN_POINT ( 'NONE',  ( 90.00000000000000000, 68.75945135393462238, 180.0000000000000000 ) ) ;
#209 = APPLICATION_PROTOCOL_DEFINITION ( 'draft international standard', 'automotive_design', 1998, #45 ) ;
#210 =( NAMED_UNIT ( * ) PLANE_ANGLE_UNIT ( ) SI_UNIT ( $, .RADIAN. ) );
#211 = DIRECTION ( 'NONE',  ( 0.7071067811865534569, 0.7071067811865415775, 0.000000000000000000 ) ) ;
#212 = VECTOR ( 'NONE', #272, 999.9999999999998863 ) ;
#213 = AXIS2_PLACEMENT_3D ( 'NONE', #138, #142, #283 ) ;
#214 = EDGE_CURVE ( 'NONE', #247, #121, #157, .T. ) ;
#215 = CARTESIAN_POINT ( 'NONE',  ( 138.6202743230342094, 117.3797256769680217, 1.102182119232618069E-14 ) ) ;
#216 = EDGE_CURVE ( 'NONE', #223, #13, #237, .T. ) ;
#217 = AXIS2_PLACEMENT_3D ( 'NONE', #50, #207, #90 ) ;
#218 = AXIS2_PLACEMENT_3D ( 'NONE', #60, #226, #152 ) ;
#219 = ADVANCED_FACE ( 'NONE', ( #276 ), #159, .F. ) ;
#220 = ORIENTED_EDGE ( 'NONE', *, *, #62, .T. ) ;
#221 = CYLINDRICAL_SURFACE ( 'NONE', #61, 90.00000000000001421 ) ;
#222 = ORIENTED_EDGE ( 'NONE', *, *, #196, .F. ) ;
#223 = VERTEX_POINT ( 'NONE', #103 ) ;
#224 = CARTESIAN_POINT ( 'NONE',  ( -106.0000000000000142, 149.9453095790622115, 0.000000000000000000 ) ) ;
#225 = ORIENTED_EDGE ( 'NONE', *, *, #58, .T. ) ;
#226 = DIRECTION ( 'NONE',  ( 1.859842476768027821E-30, 1.000000000000000000, 0.000000000000000000 ) ) ;
#227 = VECTOR ( 'NONE', #182, 999.9999999999998863 ) ;
#228 = CARTESIAN_POINT ( 'NONE',  ( 90.00000000000000000, 68.75945135393459395, 1.102182119232618069E-14 ) ) ;
#229 = CARTESIAN_POINT ( 'NONE',  ( -106.0000000000000142, 149.9453095790621830, 212.0000000000000000 ) ) ;
#230 = DIRECTION ( 'NONE',  ( -1.000000000000000000, 1.859842476768027821E-30, 0.000000000000000000 ) ) ;
#231 = ORIENTED_EDGE ( 'NONE', *, *, #145, .T. ) ;
#232 = CYLINDRICAL_SURFACE ( 'NONE', #217, 106.0000000000000142 ) ;
#233 = CARTESIAN_POINT ( 'NONE',  ( 106.0000000000000142, 62.13203435596501123, 1.298125607096194621E-14 ) ) ;
#234 = AXIS2_PLACEMENT_3D ( 'NONE', #284, #251, #199 ) ;
#235 = CARTESIAN_POINT ( 'NONE',  ( -58.06356800318344824, 47.97510396433114011, 0.000000000000000000 ) ) ;
#236 = CARTESIAN_POINT ( 'NONE',  ( -68.37340930541714101, 37.66526266209761786, 0.000000000000000000 ) ) ;
#237 = CIRCLE ( 'NONE', #160, 90.00000000000001421 ) ;
#238 = EDGE_CURVE ( 'NONE', #112, #121, #119, .T. ) ;
#239 = EDGE_CURVE ( 'NONE', #290, #102, #43, .T. ) ;
#240 = ORIENTED_EDGE ( 'NONE', *, *, #96, .T. ) ;
#241 = EDGE_LOOP ( 'NONE', ( #172, #193, #262, #15 ) ) ;
#242 = MECHANICAL_DESIGN_GEOMETRIC_PRESENTATION_REPRESENTATION (  '', ( #287 ), #183 ) ;
#243 = SURFACE_STYLE_USAGE ( .BOTH. , #248 ) ;
#244 = VERTEX_POINT ( 'NONE', #26 ) ;
#245 = FACE_OUTER_BOUND ( 'NONE', #59, .T. ) ;
#246 = CARTESIAN_POINT ( 'NONE',  ( -143.3267281111905618, 112.6185814678722892, 0.000000000000000000 ) ) ;
#247 = VERTEX_POINT ( 'NONE', #105 ) ;
#248 = SURFACE_SIDE_STYLE ('',( #178 ) ) ;
#249 = CARTESIAN_POINT ( 'NONE',  ( 74.98066401624548405, 181.0193359837578271, 0.000000000000000000 ) ) ;
#250 = DIRECTION ( 'NONE',  ( 1.859842476768027821E-30, 1.000000000000000000, 0.000000000000000000 ) ) ;
#251 = DIRECTION ( 'NONE',  ( 0.7071067811865534569, 0.7071067811865415775, 0.000000000000000000 ) ) ;
#252 = ORIENTED_EDGE ( 'NONE', *, *, #23, .F. ) ;
#253 = DIRECTION ( 'NONE',  ( 0.000000000000000000, 1.000000000000000000, 0.000000000000000000 ) ) ;
#254 = CARTESIAN_POINT ( 'NONE',  ( -90.00000000000001421, 1.673858229091225326E-28, 0.000000000000000000 ) ) ;
#255 = AXIS2_PLACEMENT_3D ( 'NONE', #236, #34, #4 ) ;
#256 = ADVANCED_FACE ( 'NONE', ( #108, #293 ), #161, .F. ) ;
#257 = CARTESIAN_POINT ( 'NONE',  ( 11.34105370945673386, 244.6589462905476466, 0.000000000000000000 ) ) ;
#258 = CIRCLE ( 'NONE', #46, 106.0000000000000142 ) ;
#259 = ADVANCED_FACE ( 'NONE', ( #155 ), #266, .F. ) ;
#260 = UNCERTAINTY_MEASURE_WITH_UNIT (LENGTH_MEASURE( 1.000000000000000082E-05 ), #2, 'distance_accuracy_value', 'NONE');
#261 = AXIS2_PLACEMENT_3D ( 'NONE', #299, #83, #230 ) ;
#262 = ORIENTED_EDGE ( 'NONE', *, *, #55, .T. ) ;
#263 = ADVANCED_FACE ( 'NONE', ( #245 ), #126, .F. ) ;
#264 = EDGE_LOOP ( 'NONE', ( #203, #194 ) ) ;
#265 = VERTEX_POINT ( 'NONE', #7 ) ;
#266 = CYLINDRICAL_SURFACE ( 'NONE', #218, 90.00000000000001421 ) ;
#267 = EDGE_CURVE ( 'NONE', #13, #223, #192, .T. ) ;
#268 = PRESENTATION_LAYER_ASSIGNMENT (  '', '', ( #287 ) ) ;
#269 = AXIS2_PLACEMENT_3D ( 'NONE', #274, #253, #271 ) ;
#270 = EDGE_LOOP ( 'NONE', ( #297, #240 ) ) ;
#271 = DIRECTION ( 'NONE',  ( 0.000000000000000000, -0.000000000000000000, 1.000000000000000000 ) ) ;
#272 = DIRECTION ( 'NONE',  ( 0.7071067811865535679, 0.7071067811865415775, 0.000000000000000000 ) ) ;
#273 = DIRECTION ( 'NONE',  ( -1.000000000000000000, 1.859842476768027821E-30, 0.000000000000000000 ) ) ;
#274 = CARTESIAN_POINT ( 'NONE',  ( 0.000000000000000000, 0.000000000000000000, 0.000000000000000000 ) ) ;
#275 = VERTEX_POINT ( 'NONE', #206 ) ;
#276 = FACE_OUTER_BOUND ( 'NONE', #17, .T. ) ;
#277 = FACE_OUTER_BOUND ( 'NONE', #270, .T. ) ;
#278 = AXIS2_PLACEMENT_3D ( 'NONE', #249, #129, #205 ) ;
#279 = DIRECTION ( 'NONE',  ( 0.000000000000000000, 0.000000000000000000, 1.000000000000000000 ) ) ;
#280 = DIRECTION ( 'NONE',  ( 0.000000000000000000, 1.000000000000000000, 0.000000000000000000 ) ) ;
#281 = DIRECTION ( 'NONE',  ( 0.000000000000000000, 0.000000000000000000, 1.000000000000000000 ) ) ;
#282 = CARTESIAN_POINT ( 'NONE',  ( -90.00000000000001421, 143.3178925810926216, 0.000000000000000000 ) ) ;
#283 = DIRECTION ( 'NONE',  ( 1.000000000000000000, 0.000000000000000000, 0.000000000000000000 ) ) ;
#284 = CARTESIAN_POINT ( 'NONE',  ( -68.37340930541714101, 37.66526266209761786, 0.000000000000000000 ) ) ;
#285 = CIRCLE ( 'NONE', #151, 106.0000000000000142 ) ;
#286 =( BOUNDED_CURVE ( )  B_SPLINE_CURVE ( 3, ( #233, #1, #229, #134 ),
 .UNSPECIFIED., .F., .T. ) 
 B_SPLINE_CURVE_WITH_KNOTS ( ( 4, 4 ),
 ( 3.141592653589793116, 6.283185307179586232 ),
 .UNSPECIFIED. ) 
 CURVE ( )  GEOMETRIC_REPRESENTATION_ITEM ( )  RATIONAL_B_SPLINE_CURVE ( ( 1.000000000000000000, 0.3333333333333333703, 0.3333333333333333703, 1.000000000000000000 ) ) 
 REPRESENTATION_ITEM ( '' )  );
#287 = STYLED_ITEM ( 'NONE', ( #130 ), #73 ) ;
#288 =( GEOMETRIC_REPRESENTATION_CONTEXT ( 3 ) GLOBAL_UNCERTAINTY_ASSIGNED_CONTEXT ( ( #260 ) ) GLOBAL_UNIT_ASSIGNED_CONTEXT ( ( #2, #210, #140 ) ) REPRESENTATION_CONTEXT ( 'NONE', 'WORKASPACE' ) );
#289 = ORIENTED_EDGE ( 'NONE', *, *, #72, .F. ) ;
#290 = VERTEX_POINT ( 'NONE', #94 ) ;
#291 = CARTESIAN_POINT ( 'NONE',  ( 90.00000000000001421, -1.673858229091225326E-28, 1.102182119232618069E-14 ) ) ;
#292 = ORIENTED_EDGE ( 'NONE', *, *, #36, .T. ) ;
#293 = FACE_OUTER_BOUND ( 'NONE', #264, .T. ) ;
#294 = VECTOR ( 'NONE', #53, 1000.000000000000000 ) ;
#295 = DIRECTION ( 'NONE',  ( -0.7071067811865534569, -0.7071067811865415775, -0.000000000000000000 ) ) ;
#296 = LINE ( 'NONE', #123, #93 ) ;
#297 = ORIENTED_EDGE ( 'NONE', *, *, #238, .T. ) ;
#298 = EDGE_CURVE ( 'NONE', #265, #122, #189, .T. ) ;
#299 = CARTESIAN_POINT ( 'NONE',  ( 0.000000000000000000, 0.000000000000000000, 0.000000000000000000 ) ) ;
ENDSEC;
END-ISO-10303-21;
